블로그 이미지
콜필드

Rss feed Tistory
악보 2010.12.07 20:21

Hallelujah - Rufus Wainwright (슈렉OST) - 반복재생+코드






Verse:
Play x 2
|--------0-----------0-----|
|------1---1-------1---1---|
|----0-------0---2-------2-|
|--------------------------|
|--3-----------0-----------|
|--------------------------|
     c                 Am
I've heard there was a secret chord
     c                   Am
That David played and it pleased the Lord

Play x 1
|--------1-----------1-----------0-----------1-----|
|------1---1-------0---0-------1---1-------0---0---|
|----2-------2---0-------0---0-------0---0-------0-|
|--------------------------------------------------|
|--3-----------2-----------3-----------2-----------|
|--------------------------------------------------|
  F                G             c        G
But you don't really care for music do you?

Play x 1
|--------0---------1----3------0-----------1-----|
|------1---1-----1----0------1---1-------1---1---|
|----0-------0-------------2-------2---2-------2-|
|------------------------------------------------|
|--3-----------3----2----0-----------3-----------|
|------------------------------------------------|

-------------
  c                   F           g
It goes like this, the fourth, the fifth
    Am              F
The minor fall, the major lift

Play x 1
-------1-----------0-----------0-----------0-----|
-----0---0-------0---0-------1---1-------1---1---|
---0-------0---0-------0---2-------2---2-------2-|
-------------------------------------------------|
-2-----------2-----------0-----------0-----------|
-------------------------------------------------|
    G                 Em        Am
The baffled King composing Hallelujah

Chorus:
Play x 1
|--------1-----------1-----------0-----------0-----|
|------1---1-------1---1-------1---1-------1---1---|
|----2-------2---2-------2---2-------2---2-------2-|
|--------------------------------------------------|
|--3-----------3-----------0-----------0-----------|
|--------------------------------------------------|
    F           Am
Hallelujah, hallelujah

Play x 1
|--------1-----------1-----------0-----------1-----------0-----------0-----|
|------1---1-------1---1-------1---1-------0---0-------1---1-------1---1---|
|----2-------2---2-------2---0-------0---0-------0---0-------0---0-------0-|
|--------------------------------------------------------------------------|
|--3-----------3-----------3-----------2-----------3-----------3-----------|
|--------------------------------------------------------------------------|
    F           C-G-C-C
Hallelujah, hallelujah





TOTAL 1,250,338 TODAY 50